Duyurular
27.10.2007 yılında kurduğumuz webcanavari.net Bugün itibariyle 12. yaşına girmiş bulunmaktadır. Bu uzun süre zarfında desteklerini esirgemeyen eski / yeni ve mevcutta bulunan yönetim kadromuza, saygıdeğer üyelerimize teşekkür ederiz.

0 Üye ve 1 Ziyaretçi Konuyu İncelemekte. Aşağı İn :)
Sayfa 1
Konu: Satyricon - Mother North [tab]  (Okunma Sayısı: 491 Kere Okundu.)
« : Aralık 21, 2011, 02:42:10 ÖS »

Anqel*
*
Üye No : 21465
Nerden : Yurt Dışı
Cinsiyet : Bayan
Konu Sayısı : 5210
Mesaj Sayısı : 17.797
Karizma = 50130


Riff 1 (4 times)



E-|---------------------------------------------------------------------------|

B-|---------------------------------------------------------------------------|

G-|---------------------------------------------------------------------------|

D-|---------------------------------------------------------------------------|

A-|-------10-10-10-9-9-9-7-7-7-10-10-10-9-9-9---------------------------------|

E-|-0-0-0---------------------------------------------------------------------|





E-|---------------------------------------------------------------------------|

B-|---------------------------------------------------------------------------|

G-|---------------------------------------------------------------------------|

D-|-------10-10-10-9-9-9-7-7-7-9-9-9------------------------------------------|

A-|----------------------------------10-10-10---------------------------------|

E-|-7-7-7---------------------------------------------------------------------|





E-|---------------------------------------------------------------------------|

B-|---------------------------------------------------------------------------|

G-|-10-10-10-9-9-9-7-7-7-9-9-9-5-7-5-4-4-4-5-5-5------------------------------|

D-|---------------------------------------------------------------------------|

A-|---------------------------------------------------------------------------|

E-|---------------------------------------------------------------------------|





E-|---------------------------------------------------------------------------|

B-|---------------------------------------------------------------------------|

G-|-2-2-2-2-2-4-2-1-1-1-2-2-2-------------------------------------------------|

D-|---------------------------------------------------------------------------|

A-|---------------------------------------------------------------------------|

E-|---------------------------------------------------------------------------|







Riff 2 (4 times)

I will be glad if someone has a correction for this riff.



E-|---------------------------------------------------------------------------|

B-|---------------------------------------------------------------------------|

G-|---------------------------------------------------------------------------|

D-|----------------------12-12-12-9-9-9-12-12-12------------------------------|

A-|-0-0-0-7-7-7-12-12-12------------------------------------------------------|

E-|---------------------------------------------------------------------------|





E-|---------------------------------------------------------------------------|

B-|---------------------------------------------------------------------------|

G-|---------------------------------------------------------------------------|

D-|-10-10-10-7-7-7-10-10-10-9-9-9----------9-9-9------------------------------|

A-|-------------------------------10-10-10------------------------------------|

E-|---------------------------------------------------------------------------|







Play riff 1 twice

Play riff 2 twice





Riff 3 (6 times)



E-|---------------------------------------------------------------------------|

B-|---------------------------------------------------------------------------|

G-|---------------------------------------------------------------------------|

D-|-------------9-9-9---------------------------------------------------------|

A-|-------7-7-7-------10-10-10-12-12-12-9-9-9---------------------------------|

E-|-0-0-0---------------------------------------------------------------------|





E-|---------------------------------------------------------------------------|

B-|---------------------------------------------------------------------------|

G-|---------------------------------------------------------------------------|

D-|---------------------------------------------------------------------------|

A-|-10-10-10----------10-10-10-9-9-9----------9-9-9---------------------------|

E-|----------12-12-12----------------11-11-11---------------------------------|





Riff 4



E-|---------------------------------------------------------------------------|

B-|---------------------------------------------------------------------------|

G-|---------------------------------------------------------------------------|

D-|---------------------------------------------------------------------------|

A-|---7-9------7-9-10-12---7-9----9------------10-9~10~9----------------------|

E-|-0-----10-0-----------0-----10---10-9-7-6-7-----------10-------------------|





Riff 5 (4 times)



E-|---------------------------------------------------------------------------|

B-|---------------------------------------------------------------------------|

G-|---------------------------------------------------------------------------|

D-|-----------------6-6-6-6---------------------------------------------------|

A-|-6-6-6-6-7-7-7-7-4-4-4-4-7-7-7-7-2-2-2-2-----------------------------------|

E-|-4-4-4-4-5-5-5-5---------5-5-5-5-0-0-0-0-----------------------------------|



Riff 6



E-|---------------------------------------------------------------------------|

B-|---------------------------------------------------------------------------|

G-|-------4-4-4-------2-2-2---------------------------------------------------|

D-|-------------4-4-4-------5-5-5-4-4-4---------------------------------------|

A-|-2-2-2---------------------------------------------------------------------|

E-|---------------------------------------------------------------------------|





Riff 7



E-|---------------------------------------------------------------------------|

B-|---------------------------------------------------------------------------|

G-|---------------------------------------------------------------------------|

D-|-------4-4-4-------2-2-2---------------------------------------------------|

A-|-------------4-4-4-------5-5-5-4-4-4---------------------------------------|

E-|-2-2-2---------------------------------------------------------------------|





Riff 8 ( 2 times)





E-|---------------------------------------------------------------------------|

B-|---------------------------------------------------------------------------|

G-|---------------------------------------------------------------------------|

D-|---------------------------------------------------------------------------|

A-|-7&9-9-9-9-9-7&9-9-9-9-9-7&9-9-9-9-9-9'8-8&11-5&8--------------------------|

E-|-5&7-7-7-7-7-5&7-7-7-7-7-5&7-7-7-7-7-7'6-6&9--3&6--------------------------|



Riff 9 (4 times)



E-|---------------------------------------------------------------------------|

B-|---------------------------------------------------------------------------|

G-|---------------------------------------------------------------------------|

D-|---------------------------------------------------------------------------|

A-|-5&7-7-7-7-7-5&7-7-7-7-7-5&7-7-7-7-7-7'6-6-6'3-3---------------------------|

E-|-3&5-5-5-5-5-3&5-5-5-5-5-3&5-5-5-5-5-5'4-4-4'1-1---------------------------|

WebCanavari
WeBCaNaVaRi Botu

Bu Site Mükemmel :)

*****

Çevrimİçi Çevrimİçi

Mesajlar: 222.148


View Profile
Re: Satyricon - Mother North [tab]
« Posted on: Aralık 07, 2019, 07:25:16 ÖÖ »

 
      Üye Olunuz.!
Merhaba Ziyaretçi. Öncelikle Sitemize Hoş Geldiniz. Ben WeBCaNaVaRi Botu Olarak, Siteden Daha Fazla Yararlanmanız İçin Üye Olmanızı ŞİDDETLE Öneririm. Unutmayın ki; Üyelik Ücretsizdir. :)

Giriş Yap.  Kayıt Ol.
Anahtar Kelimeler: Satyricon - Mother North [tab] e-book, Satyricon - Mother North [tab] programı, Satyricon - Mother North [tab] oyunları, Satyricon - Mother North [tab] e-kitap, Satyricon - Mother North [tab] download, Satyricon - Mother North [tab] hikayeleri, Satyricon - Mother North [tab] resimleri, Satyricon - Mother North [tab] haberleri, Satyricon - Mother North [tab] yükle, Satyricon - Mother North [tab] videosu, Satyricon - Mother North [tab] şarkı sözleri, Satyricon - Mother North [tab] msn, Satyricon - Mother North [tab] hileleri, Satyricon - Mother North [tab] scripti, Satyricon - Mother North [tab] filmi, Satyricon - Mother North [tab] ödevleri, Satyricon - Mother North [tab] yemek tarifleri, Satyricon - Mother North [tab] driverları, Satyricon - Mother North [tab] smf, Satyricon - Mother North [tab] gsm
Sayfa 1
Yukarı Çık :)
Gitmek istediğiniz yer:  


Benzer Konular
Konu Başlığı Başlatan Yanıtlar Görüntü Son Mesaj
North Pole High Res - 300 Dpi
Masaüstü Resimleri
By.CeZa 4 847 Son Mesaj Ekim 03, 2009, 07:58:55 ÖS
Gönderen : dreamily
Satyricon
Sinema & Tiyatro ve Festivaller.
By.TuRuT 1 542 Son Mesaj Aralık 12, 2009, 05:28:41 ÖS
Gönderen : kFi
Lord Of The Rings: War In The North [ 2011 / Pc ]
Tüm Oyunlar
azamiturk 0 441 Son Mesaj Kasım 05, 2011, 09:58:14 ÖS
Gönderen : azamiturk
North Shore Private Hospital
Yurtdışı Sağlık Merkezleri
Honey_Face 0 288 Son Mesaj Temmuz 29, 2013, 05:47:58 ÖS
Gönderen : Honey_Face
How I Met Your Mother
Fan Club
pineapple 8 1488 Son Mesaj Mart 06, 2015, 06:20:54 ÖS
Gönderen : pineapple


Theme: WeBCaNaVaRi 2011 Copyright © 2011 Simple Machines SiteMap | Arşiv | Wap | İmode | Konular