Duyurular
WeBCaNaVaRi'na Üye Olmadan Link'leri ve Kod'ları Göremezsiniz.
Link'leri Görebilmek İçin. Üye Ol. veya Giriş Yap.
WeBCaNaVaRi Toolbar'ı Kurdunuz mu ?

0 Üye ve 1 Ziyaretçi Konuyu İncelemekte. Aşağı İn :)
Sayfa 1
Konu: Manga - Dünyanın Sonunda Doğmuşum  (Okunma Sayısı: 436 Kere Okundu.)
« : Ekim 21, 2010, 12:45:16 ÖS »

Anqel*
*
Üye No : 21465
Nerden : Yurt Dışı
Cinsiyet : Bayan
Konu Sayısı : 5210
Mesaj Sayısı : 17.797
Karizma = 50130


intro:

 

     F#m        Bm                 F#m           Bm 

E|-------------------------------------------------------

B|----14-12-------------12------------14-12----------12--

G|-11-------14--13--14-----14-13---11-------14-13-14-----

D|-------------------------------------------------------

A|-------------------------------------------------------

E|-------------------------------------------------------

     F#m         Bm                D               E

E|-----------------------------------------------------------

B|----14-12-------------12-----------------------------------

G|-11-------14--13--14-----14-13---11--13-14-13-11----13--11-

D|-------------------------------------------------14--------

A|-----------------------------------------------------------

E|-----------------------------------------------------------

(Akorları 5li basarsanız daha iyi olur ben yinede tam yazdım)



F#m

Naber bak, bende dert yok tasa yok

Bm

Mutluyum artık bir beynim yok

F#m

Dikmişim ekrana gözlerimi

Bm

Başka da bir ihtiyacım yok                  Diğer sözlerde aynı

                                             tek vuruş yapılcak

Kişisel neyim kaldı ki bir iletim olsun

Tıklana tıklana her şeyim ortada

Atın ölümü arpadan olsun

Her yiğit gibi benimki de meydanda



Tıklama konusu ayrı bir dava

Mahkemelerde görülüyor hala

Namusu bacak arasında ararım

Dişi sinek bile görsem laf atarım



Çakma makma, üçe beşe bakmam

Önüm, arkam, sağım solum markam

Bana pastamı verin, ekmeğe gerek yok

Ben tüketmeden var olamam





D                E                  F#m

Ayna, ayna hadi söyle benden daha gamsızı var mı?

D                E                  F#m

Ayna, ayna hadi söyle benden daha arsızı var mı?

(Akorları 5li basarsanız daha iyi olur)



F#m                 Bm

Dünyanın sonuna doğmuşum

D                   C# 

Ya da ölmüşüm de haberim yok

F#m                 Bm 

İyi bilirdik derler elbet ardımdan

D                 C#

Bundan büyük bir yalan yok



Yok , bundan büyük yalan yok

     F#m        Bm                 F#m           Bm 

E|-------------------------------------------------------

B|----14-12-------------12------------14-12----------12--

G|-11-------14--13--14-----14-13---11-------14-13-14-----

D|-------------------------------------------------------

A|-------------------------------------------------------

E|-------------------------------------------------------

     F#m         Bm                D               E

E|-----------------------------------------------------------

B|----14-12-------------12-----------------------------------

G|-11-------14--13--14-----14-13---11--13-14-13-11----13--11-

D|-------------------------------------------------14--------

A|-----------------------------------------------------------

E|-----------------------------------------------------------

Yok , bundan büyük yalan yok



(Akorları 5li basarsanız daha iyi olur ben yinede tam yazdım)





(aynı akorlar - tablar)

Bana dokunmayan yılan bin yaşasın

Dedikodu yapar, keyfime bakarım

Ağzımda sakız, elimde çanta

Fink atarım kaldırımlarda



Bağlanmaya sonuna kadar karşıyım

Ama dizilerimden beni ayırmayın

Değişir dünyam bir tuşla uzaktan

Elimdeki kumandam hayatıma kumandan



Yeni bir kart verdi bugün bankam

Puanlarım artık en büyük kankam

Olmasa da cebimde beş kuruş para

Cebimdeki telefon on numara



"Bak kızım, yedi kocalı hürmüz gibi dolan

Ama ailemizin kızı gibi davran,

Seni alacak biri de bulunur elbet

En kolay parayı hep sen kazan"



Ayna, ayna hadi söyle benden daha gamsızı var mı?

Ayna, ayna hadi söyle benden daha arsızı var mı?



Dünyanın sonuna doğmuşum

Ya da ölmüşüm de haberim yok

İyi bilirdik derler elbet ardımdan

Bundan büyük bir yalan yok



Yok , bundan büyük yalan yok



Sıkıldım çok, her dakika düşünmekten üzülmekten

Artık yok, kalmadı gücüm düşmekten yenilmekten

Pişmanım erken vazgeçmekten kendimden

Bu alem geçmiş kendinden

Ne gelir elden?

WebCanavari
WeBCaNaVaRi Botu

Bu Site Mükemmel :)

*****

Çevrimİçi Çevrimİçi

Mesajlar: 222.122


View Profile
Re: Manga - Dünyanın Sonunda Doğmuşum
« Posted on: Haziran 19, 2019, 12:02:57 ÖÖ »

 
      Üye Olunuz.!
Merhaba Ziyaretçi. Öncelikle Sitemize Hoş Geldiniz. Ben WeBCaNaVaRi Botu Olarak, Siteden Daha Fazla Yararlanmanız İçin Üye Olmanızı ŞİDDETLE Öneririm. Unutmayın ki; Üyelik Ücretsizdir. :)

Giriş Yap.  Kayıt Ol.
Anahtar Kelimeler: Manga - Dünyanın Sonunda Doğmuşum e-book, Manga - Dünyanın Sonunda Doğmuşum programı, Manga - Dünyanın Sonunda Doğmuşum oyunları, Manga - Dünyanın Sonunda Doğmuşum e-kitap, Manga - Dünyanın Sonunda Doğmuşum download, Manga - Dünyanın Sonunda Doğmuşum hikayeleri, Manga - Dünyanın Sonunda Doğmuşum resimleri, Manga - Dünyanın Sonunda Doğmuşum haberleri, Manga - Dünyanın Sonunda Doğmuşum yükle, Manga - Dünyanın Sonunda Doğmuşum videosu, Manga - Dünyanın Sonunda Doğmuşum şarkı sözleri, Manga - Dünyanın Sonunda Doğmuşum msn, Manga - Dünyanın Sonunda Doğmuşum hileleri, Manga - Dünyanın Sonunda Doğmuşum scripti, Manga - Dünyanın Sonunda Doğmuşum filmi, Manga - Dünyanın Sonunda Doğmuşum ödevleri, Manga - Dünyanın Sonunda Doğmuşum yemek tarifleri, Manga - Dünyanın Sonunda Doğmuşum driverları, Manga - Dünyanın Sonunda Doğmuşum smf, Manga - Dünyanın Sonunda Doğmuşum gsm
Yanıtla #1
« : Aralık 14, 2010, 11:00:28 ÖS »

Yıldızım
*
Üye No : 31517
Nerden : Tekirdağ
Cinsiyet : Bayan
Konu Sayısı : 2958
Mesaj Sayısı : 11.566
Karizma = 20132


Teşekkürler
Sayfa 1
Yukarı Çık :)
Gitmek istediğiniz yer:  



Theme: WeBCaNaVaRi 2011 Copyright © 2011 Simple Machines SiteMap | Arşiv | Wap | İmode | Konular