Duyurular
Yönetici kadromuz da olmak isteyenler Wm ve ya wm yardımcılarına mesaj atabilir Hadi bize katılın Gülmek :)

0 Üye ve 1 Ziyaretçi Konuyu İncelemekte. Aşağı İn :)
Sayfa 1
Konu: Funda Arar - Kelepçeliyim  (Okunma Sayısı: 501 Kere Okundu.)
« : Kasım 25, 2010, 12:18:40 ÖS »

Anqel*
*
Üye No : 21465
Nerden : Yurt Dışı
Cinsiyet : Bayan
Konu Sayısı : 5210
Mesaj Sayısı : 17.797
Karizma = 50130


İntro-(Em-Am-Dm-B7)

Em=022000 Am=002210 Dm=000231 B7=021202 - 021200

         Em                   

E -------------------------------------------------------------------------------
B --------------0---------------0----------------------------------------------
G ----------0-------------0-------------------0-------------------------------
D ------2------------2-----------------2---------------------------------------
A -------------------------------------------------------------------------------
E -------------------------------------------------------------------------------

        Am

E--------------------------------------------------------------------------------
B----------------1-------------------1------------------------------------------
G-----------2-----------------2-----------------1------------------------------
D------2---------------2------------------2------------------------------------
A---------------------------------------------------------------------------------
E---------------------------------------------------------------------------------

        Dm

E--------------------------------------------------------------------------------
B----------------3----------------3---------------------------------------------
G----------2----------------2-----------------2--------------------------------
D------0---------------0----------------0--------------------------------------
A--------------------------------------------------------------------------------
E--------------------------------------------------------------------------------

       B7

E--------------------------------------------------------------------------------
B------------------0--------------0---------------------------------------------
G------------2---------------2---------------2---------------------------------
D-------1--------------1---------------1---------------------------------------
A--------------------------------------------------------------------------------
E--------------------------------------------------------------------------------
       2X

solo

E---0---3---7---12---10---8---7---8------5---7---8---3---3---5---7--2--2--3--0-----
B------------------------------------------------------------------------------------
G------------------------------------------------------------------------------------
D------------------------------------------------------------------------------------
A------------------------------------------------------------------------------------
E------------------------------------------------------------------------------------

 Em             Am    Dm                B7   
 Kanunu yok bu aşkın , galibi mağlubu yok
 
 Em              Am     Dm               B7
 Kaybolduk birbirimizde kendini çaldın sen bende


 Em               Am    C                  B7    ) 
 Kelepçeliyim ben sana   yüreğimden taa derinden ) 
                                                 )nakarat
 Em               Am    C                  B7    )
 Suçumda sensin cezamda kaçıp gitme ellerimden   )
 

 Em              Am      Dm           B7
 Mahkumu yok bu aşkın yanlışı doğrusu yok
 
 Em              Am       Dm                 B7
 Hapsolduk birbirimizde kendini çaldın sen bende

 nakarat...


WebCanavari
WeBCaNaVaRi Botu

Bu Site Mükemmel :)

*****

Çevrimİçi Çevrimİçi

Mesajlar: 222.103


View Profile
Re: Funda Arar - Kelepçeliyim
« Posted on: Nisan 22, 2019, 09:12:37 ÖÖ »

 
      Üye Olunuz.!
Merhaba Ziyaretçi. Öncelikle Sitemize Hoş Geldiniz. Ben WeBCaNaVaRi Botu Olarak, Siteden Daha Fazla Yararlanmanız İçin Üye Olmanızı ŞİDDETLE Öneririm. Unutmayın ki; Üyelik Ücretsizdir. :)

Giriş Yap.  Kayıt Ol.
Anahtar Kelimeler: Funda Arar - Kelepçeliyim e-book, Funda Arar - Kelepçeliyim programı, Funda Arar - Kelepçeliyim oyunları, Funda Arar - Kelepçeliyim e-kitap, Funda Arar - Kelepçeliyim download, Funda Arar - Kelepçeliyim hikayeleri, Funda Arar - Kelepçeliyim resimleri, Funda Arar - Kelepçeliyim haberleri, Funda Arar - Kelepçeliyim yükle, Funda Arar - Kelepçeliyim videosu, Funda Arar - Kelepçeliyim şarkı sözleri, Funda Arar - Kelepçeliyim msn, Funda Arar - Kelepçeliyim hileleri, Funda Arar - Kelepçeliyim scripti, Funda Arar - Kelepçeliyim filmi, Funda Arar - Kelepçeliyim ödevleri, Funda Arar - Kelepçeliyim yemek tarifleri, Funda Arar - Kelepçeliyim driverları, Funda Arar - Kelepçeliyim smf, Funda Arar - Kelepçeliyim gsm
Yanıtla #1
« : Kasım 25, 2010, 01:39:21 ÖS »

StyLeLife[Rap]
*
Üye No : 24582
Nerden : Ankara
Cinsiyet : Bay
Konu Sayısı : 815
Mesaj Sayısı : 7.813
Karizma = 19646


Teşekkürler.

чusuf  '-Pınarcı    >> 


Sevginin göstergesi ilgidir , ilgi yoksa yakışan Silgidir (;
 
Sayfa 1
Yukarı Çık :)
Gitmek istediğiniz yer:  



Theme: WeBCaNaVaRi 2011 Copyright © 2011 Simple Machines SiteMap | Arşiv | Wap | İmode | Konular