Duyurular
WeBCaNaVaRi'na Üye Olmadan Link'leri ve Kod'ları Göremezsiniz.
Link'leri Görebilmek İçin. Üye Ol. veya Giriş Yap.
WeBCaNaVaRi Toolbar'ı Kurdunuz mu ?

0 Üye ve 1 Ziyaretçi Konuyu İncelemekte. Aşağı İn :)
Sayfa 1
Konu: Dejavu - Öylesine  (Okunma Sayısı: 431 Kere Okundu.)
« : Kasım 20, 2010, 11:45:59 ÖÖ »

Anqel*
*
Üye No : 21465
Nerden : Yurt Dışı
Cinsiyet : Bayan
Konu Sayısı : 5210
Mesaj Sayısı : 17.797
Karizma = 50130


gitarımızı D-A-D-G-B-E şeklinde akort ediyoruz.ü


Akustik
E---------------------------------------------------------------------------------------------------------
B---------------------------------------------------------------------------------------------------------
G---------------------------------------------------------------------------------------------------------
D--2-2--2-2--6--2-2-2-2--0--2-2-2-2-6-7-6-3-2--2-2-2-2-6-2-2-2-2-0--2-2-2-2-6-3-2-0-3-----
A---------------------------------------------------------------------------------------------------------
D---------------------------------------------------------------------------------------------------------

(burda bağlama giriyo daha sonra tekrar gitar:)

Distortion

------------------------------------------------------
------------------------------------------------------
------------------------------------------------------
---2-2-x--6--2-2-x--0--2-2-x-6-------------------
---2-2-X--6--2-2-x--0--2-2-x-6-------------------
---2-2-X--6--2-2-x--0--2-2-x-6---7-6-3-2-------



-----------------------------------------------------------------------------
-----------------------------------------------------------------------------
-----------------------------------------------------------------------------
---2-2--x--6--2-2-x--0--2-2-x--6----3--2--0--3-------------------------
---2-2--x--6--2-2-x--0--2-2-x--6----3--2--0--3-------------------------
---2-2--x--6--2-2-x--0--2-2-x--6----3--2--0--3-------------------------


-----------------------------------------------------------------------------
-----------------------------------------------------------------------------
-----------------------------------------------------------------------------
----2-2-x-0----2-2-x-0---2-2-x-0---2-2-x-3-----------------------------
----2-2-x-0----2-2-x-0---2-2-x-0---2-2-x-3-----------------------------
----2-2-x-0----2-2-x-0---2-2-x-0---2-2-x-3-----------------------------


bu kafeste çok yalnızım..


------------------------------------------------------
------------------------------------------------------
------------------------------------------------------
---2-2-x--6--2-2-x--0--2-2-x-6-------------------
---2-2-X--6--2-2-x--0--2-2-x-6-------------------
---2-2-X--6--2-2-x--0--2-2-x-6---7-6-3-2-------

geçen anlar en zor işin hiç düşnme yoktur eşin

-----------------------------------------------------------------------------
-----------------------------------------------------------------------------
-----------------------------------------------------------------------------
---2-2--x--6--2-2-x--0--2-2-x--6----3--2--0--3-------------------------
---2-2--x--6--2-2-x--0--2-2-x--6----3--2--0--3-------------------------
---2-2--x--6--2-2-x--0--2-2-x--6----3--2--0--3-------------------------

sakın sorma ne nası niye yaşarız  öylesine...


WebCanavari
WeBCaNaVaRi Botu

Bu Site Mükemmel :)

*****

Çevrimİçi Çevrimİçi

Mesajlar: 222.122


View Profile
Re: Dejavu - Öylesine
« Posted on: Haziran 16, 2019, 01:41:57 ÖS »

 
      Üye Olunuz.!
Merhaba Ziyaretçi. Öncelikle Sitemize Hoş Geldiniz. Ben WeBCaNaVaRi Botu Olarak, Siteden Daha Fazla Yararlanmanız İçin Üye Olmanızı ŞİDDETLE Öneririm. Unutmayın ki; Üyelik Ücretsizdir. :)

Giriş Yap.  Kayıt Ol.
Anahtar Kelimeler: Dejavu - Öylesine e-book, Dejavu - Öylesine programı, Dejavu - Öylesine oyunları, Dejavu - Öylesine e-kitap, Dejavu - Öylesine download, Dejavu - Öylesine hikayeleri, Dejavu - Öylesine resimleri, Dejavu - Öylesine haberleri, Dejavu - Öylesine yükle, Dejavu - Öylesine videosu, Dejavu - Öylesine şarkı sözleri, Dejavu - Öylesine msn, Dejavu - Öylesine hileleri, Dejavu - Öylesine scripti, Dejavu - Öylesine filmi, Dejavu - Öylesine ödevleri, Dejavu - Öylesine yemek tarifleri, Dejavu - Öylesine driverları, Dejavu - Öylesine smf, Dejavu - Öylesine gsm
Yanıtla #1
« : Aralık 19, 2010, 05:43:52 ÖS »

Yıldızım
*
Üye No : 31517
Nerden : Tekirdağ
Cinsiyet : Bayan
Konu Sayısı : 2958
Mesaj Sayısı : 11.566
Karizma = 20132


Teşekkürler
Sayfa 1
Yukarı Çık :)
Gitmek istediğiniz yer:  



Theme: WeBCaNaVaRi 2011 Copyright © 2011 Simple Machines SiteMap | Arşiv | Wap | İmode | Konular