Duyurular
WeBCaNaVaRi'na Üye Olmadan Link'leri ve Kod'ları Göremezsiniz.
Link'leri Görebilmek İçin. Üye Ol. veya Giriş Yap.
WeBCaNaVaRi Toolbar'ı Kurdunuz mu ?

0 Üye ve 1 Ziyaretçi Konuyu İncelemekte. Aşağı İn :)
Sayfa 1
Konu: Dejavu - Kendin Çoş  (Okunma Sayısı: 458 Kere Okundu.)
« : Kasım 20, 2010, 11:45:31 ÖÖ »

Anqel*
*
Üye No : 21465
Nerden : Yurt Dışı
Cinsiyet : Bayan
Konu Sayısı : 5210
Mesaj Sayısı : 17.797
Karizma = 50130


Kendin Coş
Deja Vu


Sazla girerken:

G--------------------------------------------------------------------------
D--------------------------------------------------------------------------
A--------------------------------------------------------------------------
E--2-3------3-2-0-0--0-2-0-------------------------------------------------

Ana Riff:

G--------------------------------------------------------------------------
D--------------------------------------------------------------------------
A------1-0-1-0------------1-0-1-0------------1-0-1-0-----------------------
E--2-3---------3------2-3---------3------2-3---------3-------3-2-0-0--0-2-0

Sazla Girilien Son Riff:

G---------------------------------------------------------------------------
D---------------------------------------------------------------------------
A-------------1-p-0--------------1-p-0------------1-p-0---------------------
E--2-h-3-3-3----------2-h-3-3-3----------2-h-3-3------------3-3-2-2-0-------

WebCanavari
WeBCaNaVaRi Botu

Bu Site Mükemmel :)

*****

Çevrimİçi Çevrimİçi

Mesajlar: 222.122


View Profile
Re: Dejavu - Kendin Çoş
« Posted on: Haziran 20, 2019, 01:58:23 ÖS »

 
      Üye Olunuz.!
Merhaba Ziyaretçi. Öncelikle Sitemize Hoş Geldiniz. Ben WeBCaNaVaRi Botu Olarak, Siteden Daha Fazla Yararlanmanız İçin Üye Olmanızı ŞİDDETLE Öneririm. Unutmayın ki; Üyelik Ücretsizdir. :)

Giriş Yap.  Kayıt Ol.
Anahtar Kelimeler: Dejavu - Kendin Çoş e-book, Dejavu - Kendin Çoş programı, Dejavu - Kendin Çoş oyunları, Dejavu - Kendin Çoş e-kitap, Dejavu - Kendin Çoş download, Dejavu - Kendin Çoş hikayeleri, Dejavu - Kendin Çoş resimleri, Dejavu - Kendin Çoş haberleri, Dejavu - Kendin Çoş yükle, Dejavu - Kendin Çoş videosu, Dejavu - Kendin Çoş şarkı sözleri, Dejavu - Kendin Çoş msn, Dejavu - Kendin Çoş hileleri, Dejavu - Kendin Çoş scripti, Dejavu - Kendin Çoş filmi, Dejavu - Kendin Çoş ödevleri, Dejavu - Kendin Çoş yemek tarifleri, Dejavu - Kendin Çoş driverları, Dejavu - Kendin Çoş smf, Dejavu - Kendin Çoş gsm
Yanıtla #1
« : Aralık 19, 2010, 05:43:20 ÖS »

Yıldızım
*
Üye No : 31517
Nerden : Tekirdağ
Cinsiyet : Bayan
Konu Sayısı : 2958
Mesaj Sayısı : 11.566
Karizma = 20132


Teşekkürler
Sayfa 1
Yukarı Çık :)
Gitmek istediğiniz yer:  



Theme: WeBCaNaVaRi 2011 Copyright © 2011 Simple Machines SiteMap | Arşiv | Wap | İmode | Konular